Easy Guitar Songs

Easy guitar songs for any aspiring guitarist. Choose from a range of easy guitar songs anyone can learn to play regardless of age, skill or background.
While you’re here, don’t forget to download out free report – 50 Ways To Dramatically Improve Your Playing

There are easy guitar songs without chords for beginners. Here is a list of easy guitar songs without chords.  These easy songs to play on guitar one string. So check them out…

Smoke On the water by Deep Purple

E|---------------------------------|
B|---------------------------------|
G|---------------------------------|
D|---------------------------------|
A|---------------------------------|
E|--0-3-5---0-3-6-5---0-3-5---3-0--|

Seven Nation Army – The White Stripes

E|-------------------------|
B|-------------------------|
G|-------------------------|
D|-------------------------|
A|--7—-7-—10—-7-—5-—3-—2---|
E|-------------------------|

Wild Things by The Troggs

E|--------------------------|
B|--------------------------|
G|--------------------------|
D|--------------------------|
A|--------------------------|
E|--0--0--5--5--7--7--5--5--|

Thunderstruck – AC/DC

E|---------------------------------------------------------|
B|-0-4-0-7-0-4-0-7-0-4-0-7-0-4-0-7-0-5-0-8-0-5-0-8-0-5-0-8-|
G|---------------------------------------------------------|
D|---------------------------------------------------------|
A|---------------------------------------------------------|
E| --------------------------------------------------------|

These guitar songs without chords for beginners to learn are really fun and easy to learn. Check out the video to learn these super easy guitar songs for beginners at the video lesson below…

Sweet Carolina by Neil Diamond is one of the easy songs to play on guitar.

Version 1: Sweet Caroline Chords Capo 2

Firstly for sweet caroline guitar chords, they are:

 A  Bm  C#m  D   E  E7  F#m

For sweet caroline strumming pattern, it is:

Down Down Up Up Down Up

Down Down Down Down Down Down

Check out Sweet Carolina chords and strumming patterns video lesson below…

Version 2: Sweet Caroline Chords No Capo – Easier version

This sweet caroline guitar chords are:

 E    A    D

Version 3:

For this version, sweet caroline chords in G and sweet caroline chords in C are played as well as F  Em  Dm  Am.

If you are looking for sweet caroline bass tab, check out:

If you are looking for sweet caroline piano chords, check out:

If you are looking for sweet caroline chords ukulele, check out:

Another easy song to play on guitar is Stand By Me song originally by Ben E. King. The stand by me chords in C   D  G  Em  – 4 chords. It stays the same on the same chords for the whole song. The stand by me guitar cover will be played at capo 2.

This video will show you how to play stand by me on guitar for beginners.

This song is famously covered by John Lennon Stand By Me Guitar Lesson

This stand by me guitar notes or chords used are:

A  F#m D  E  A

Just followed the same chord progression over the over again. Here is another stand by me chords John Lennon video lesson that is played beautifully.

This guitar tutor played stand by me strumming pattern very neatly and beautifully. It shows stand by me guitar chords easy to play.

Stand by me guitar tabs / how to play stand by me on guitar tabs

You will find how to play stand by me on guitar fingerstyle

How to play Stand By Me Oasis on guitar

You can find stand by me chords ultimate guitar.

By learning 3 chords – Am G  D, you can learn an easy acoustic guitar song –  Working Class Hero by John Lennon.

I always receive emails from our subscribers asking me what are the easiest guitar songs for beginners chords?

Here are some good easy guitar tabs for beginners….

Sweet Child O’ Mine by Guns N’ Roses Intro Riff

E |-------------15---14----------------15---14----|
B |----15---------------------15------------------|
G |-------14-12---14----14-------14-12---14----14-|
D |-12---------------------12---------------------|
A |-----------------------------------------------|
E |-----------------------------------------------|

Beat It by Michael Jackson Riff

E |-------------------------------|
B |-------------------------------|
G |-------------------------------|
D |----------5--2—2h4---2--0--0---|
A |-------2-----------------------|
E |-0--3--------------------------|
E |-------------------------------|
B |-------------------------------|
G |-------------------------------|
D |----------5--2—2h4---2--0------|
A |-------2-----------------------|
E |-0--3--------------------------|

Come as you are by Nirvana intro riff

E |-------------------------------------------|
B |-------------------------------------------|
G |-------------------------------------------|
D |-------------------------------------------|
A |-----------0---0-------------2------2------|
E |-0-0-1--2----2----2--2--1--0---0--0---0--1-|

Wild Thing by The Troggs

E|--------------------------|
B|--------------------------|
G|--------------------------|
D|--------------------------|
A|--------------------------|
E|--0--0--5--5--7--7--5--5--|

Knockin’ On Heavens Door by Bob Dylan

Easy Guitar Kids Songs

If you are looking for how to teach a child to play guitar or teach guitar songs for 10 year olds, there are plenty of easy guitar songs for kids. Here is a list of easy children’s songs guitar tabs.

Twinkle Twinkle Little Star

E|-------------------------------|
B|-----3-3-5-5-3--1-1-0-0--------|
G|-0-0--------------------2-2-0--|
D|-------------------------------|
A|-------------------------------|
E|-------------------------------|
E|-------------------------------|
B|--3-3-1-1-0-0---3-3-1-1-0-0----|
G|--------------2--------------2-|
D|-------------------------------|
A|-------------------------------|
E|-------------------------------|
E|-------------------------------|
B|-----3-3-5-5-3--1-1-0-0--------|
G|-0-0--------------------2-2-0--|
D|-------------------------------|
A|-------------------------------|
E|-------------------------------|

 

Happy Birthday Song

E |--------------------|
B |--------------1--0--|
G |--0--0—-2--0--------|
D |--------------------|
A |--------------------|
E |--------------------|
E |--------------------|
B |--------------3--1--|
G |--0--0—-2--0--------|
D |--------------------|
A |--------------------|
E |--------------------|
E |-------3--0---------|
B |-------------1-0----|
G |--0--0—----------2--|
D |--------------------|
A |--------------------|
E |--------------------|
E |-1--1--0------------|
B |----------1--3--1---|
G |------—-------------|
D |--------------------|
A |--------------------|
E |--------------------|

Jingle Bells

E|---0-------------0------------|
B|-----3--1-----------3--1------|
G|-0---------0---0----------2---|
D|------------------------------|
A|------------------------------|
E|------------------------------|
E|---1--0--------3--3--1---0----|
B|--------3--0-----------3------|
G|-2----------------------------|
D|------------------------------|
A|------------------------------|
E|------------------------------|
E|---0-------------0------------|
B|-----3--1-----------3--1------|
G|-0---------0---0----------2---|
D|------------------------------|
A|------------------------------|
E|------------------------------|
E|---1--0---3-3-3--3-5-3-1------|
B|--------3----------------3-1--|
G|-2----------------------------|
D|------------------------------|
A|------------------------------|
E|------------------------------|

Children’s songs chords pdf

Here are some children songs chords…

Mary Had A Little Lamb
G                                      D7                 G
Mary had a little lamb, little lamb, little lamb
G                                      D7                                     G
Mary had a little lamb, it’s fleece was white as snow
D7                          G

Everywhere that Mary went, Mary went, Mary went
D7                                G
Everywhere that Mary went, that lamb was sure to go

It followed her to school one day, school one day, school one day
It followed her to school one day which was against the rules
It made the children laugh and play, laugh and play laugh and play
It made the children laugh and play to see a lamb at school
Mary had a little lamb, little lamb, little lamb
Mary had a little lamb, its fleece was white as snow

Humpty Dumpty

G             C             D7              G
Humpty Dumpty sat on the wall,
G            C              G                D7
Humpty Dumpty had a great fall.
G                     C                D7                  G
All the king’s horses and all the king’s men,
G                 C                     D7        G
Couldn’t put Humpty together again.

Hey, Diddle Diddle

G                                         D7
Hey, diddle, diddle, that cat and the fiddle
G                                             D7
The cow jumped over the moon.
C                                 G
The little dog laughed to see such sport,
D7                                      G
And the dish ran away with the spoon.

Polly Put the Kettle On

F
Polly put the kettle on,
G7                  C7
Polly put the kettle on,
F        C7          F
Polly put the kettle on,
G7  C7     F
We’ll all have tea.
F          C7       F
Sukey, take it off again,
Bb       G7      C7
Sukey, take it off again,
F            C7        F
Sukey, take it off again,
G7  C7    F
They’ve all gone away.

London Bridge

F                                                      C7                   F
London bridge is falling down, falling down, falling down,
F                                                     C7          F
London bridge is falling down, my fair lady

Old MacDonald Had a Farm

G                           C          G        D7  G
Old MacDonald had a farm, e-i-e-i-o
G                                  C                 G         D7  G
And on this farm he had some chicks, e-i-e-i-o
G
With a chick, chick here and a chick, chick there
G
Here a chick, there a chick, everywhere a chick, chick
G                            C        G        D7  G
Old MacDonald had a farm, e-i-e-i-o

Twinke, Twinkle, Little Star
C                             F       C
Twinkle, twinkle little star
F          C            G               C
How I wonder what you are
C     F                C              G
Up above the world so high
C         F               C          G
Like a diamond in the sky
C                            F      C
Twinkle, twinkle little star
F          C             G7             C
How I wonder what you are

Baa Baa Black Sheep

C                                    F                      C
Baa baa black sheep have you any wool
F            C            G7              C
Yes sir, yes sir, three bags full
C                   F                  C                   G7
One for my master and one for my dame
C                    F                       C        G7            C
One for the little boy who lives down the lane

Incy Wincy Spider

D                                         A                        D
Incy Wincy spider climb up the water spout
D                                        A                                   D
Down came the rain and washed poor Incy out
G                        D                      A                          D
Out came the sunshine and dried up all the rain
D                                        A                      D
So Incy Wincy spider went up the spout again

Row Row Row Your Boat

A
Row row row your boat gently down the steam
A                                                        E
Merrily, merrily, merrily, merrily life is just a dream

Head, Shoulders, Knees and Toes

G
Heads, shoulders, knees and toes, knees and toes
G                                                  D
Heads, shoulders, knees and toes, knees and toes
G                                   C
And eyes and ears and mouth and nose
D7                                               G
Heads, shoulders, knees and toes


Disney songs guitar chords

Alice In Wonderland

Can You Feel The Love Tonight

Best of Friends

There are easy guitar songs on the first 3 strings only. You can play Twinkle, Twinkle Little Star, Happy Birthday song and Love Me Tender with just 3 strings. I have included below easy guitar songs tabs for you.

Twinkle Twinkle Little Star

E|-------------------------------|
B|-----3-3-5-5-3--1-1-0-0--------|
G|-0-0--------------------2-2-0--|
D|-------------------------------|
A|-------------------------------|
E|-------------------------------|
E|-------------------------------|
B|--3-3-1-1-0-0---3-3-1-1-0-0----|
G|--------------2--------------2-|
D|-------------------------------|
A|-------------------------------|
E|-------------------------------|
E|-------------------------------|
B|-----3-3-5-5-3--1-1-0-0--------|
G|-0-0--------------------2-2-0--|
D|-------------------------------|
A|-------------------------------|
E|-------------------------------|

Happy Birthday Song

E |--------------------|
B |--------------1--0--|
G |--0--0—-2--0--------|
D |--------------------|
A |--------------------|
E |--------------------|
E |--------------------|
B |--------------3--1--|
G |--0--0—-2--0--------|
D |--------------------|
A |--------------------|
E |--------------------|
E |-------3--0---------|
B |-------------1-0----|
G |--0--0—----------2--|
D |--------------------|
A |--------------------|
E |--------------------|
E |--1--1--0-----------|
B |----------1--3--1---|
G |--------------------|
D |--------------------|
A |--------------------|
E |--------------------|

Love Me Tender

E|----------------------------|
B|---1-0-1-3---3-1-0---0-1----|
G|-0---------2-------2--------|
D|----------------------------|
A|----------------------------|
E|----------------------------| (x2)
E|0-0-0--0-0-0--0--------0----|
B|----------------3-1-3-------|
G|----------------------------|
D|----------------------------|
A|----------------------------|
E|----------------------------|
E|-0-0-1-0----------0---------|
B|---------3---3--1-0--3--1---|
G|-----------2----------------|
D|----------------------------|
A|----------------------------|
E|----------------------------|

Here are top ten easiest guitar songs for beginners to learn to play on guitar. These guitar songs for beginners popular songs are great to improve your playing.

Amazing Grace

E|------------------------------------|
B|-----0---0---------------0---0---3--|
G|---0---0---2-0---------0---0---2----|
D|-0--------------2-0--0--------------|
A|------------------------------------|
E|------------------------------------|
E|----------------------------------------|
B|-0-3-0-3-0--------------------0---0-----|
G|-----------0-----0-0--------0---0---2-0-|
D|-------------0-2-----2-0--0-------------|
A|----------------------------------------|
E|----------------------------------------|

 

Beat It

E |-------------------------------|
B |-------------------------------|
G |-------------------------------|
D |----------5--2—2h4---2--0--0---|
A |-------2-----------------------|
E |-0--3--------------------------|
E |-------------------------------|
B |-------------------------------|
G |-------------------------------|
D |----------5--2—2h4---2--0------|
A |-------2-----------------------|
E |-0--3--------------------------|

The James Bond Theme

E |---------------------------------------|
B |---------------------------------------|
G |---------------------------------------|
D |---------------------------------------|
A |---------------------------------------|
E |-0-2-2-2-2--0-0-0-0--3-3-3--3—3--2-2-2-| x2
E |---------------------------------------|
B |---------------------------------------|
G |---------------------------------------|
D |---------------------------------------|
A |---------------------------------------|
E |-0-2-2-2-2--0-0-0-0--3-3-3--3—3--2-1-0-|
E |---------------------------------------|
B |---------------------------------------|
G |---------------------------------------|
D |------1-0------------------------------|
A |------------2-0-2----------------------|
E |---------------------------------------|


Smoke On The Water

E|---------------------------------|
B|---------------------------------|
G|---------------------------------|
D|---------------------------------|
A|---------------------------------|
E|--0-3-5---0-3-6-5---0-3-5---3-0--|

Seven Nation Army – The White Stripes

E|-------------------------|
B|-------------------------|
G|-------------------------|
D|-------------------------|
A|--7—-7-—10—-7-—5-—3-—2---|
E|-------------------------|

This song is very easy guitar songs for beginners acoustic and its one of the White Stripes most famous songs.

La Bamba

E|-------------------------|
B|-------------------------|
G|------------2--0---------|
D|----2----3---------------|
A|--3---3------------------|
E|-------------------------|
E|-------------------------|
B|-------------------------|
G|-------------------------|
D|--------0--3--3--2--0----|
A|-----2-------------------|
E|--3----------------------|

House Of The Rising Sun

Knockin’ on Heaven’s Door

Brown Eyed Girl

Let It Be

There videos are found in youtube easy guitar songs for beginners.

This video will show you super easy electric guitar songs. It has easy electric guitar tabs for you to follow…

Ring Of Fire by Johnny Cash is an easy guitar chord songs for beginners with 3 chords – G   C  D

It is another easy acoustic guitar songs that you can learn to play.

This easy guitar songs for beginners chords Ring Of Fire – 3 chord songs G C D are played in this video…

If you are just starting out to learn to play country guitar, the great song to learn to play is Wagon Wheel by Bob Dylan.

Guitar Chords used in this song are: G  D  Em  C

Check out this cool video clip that will show you how to play 5 awesome easy bass rock songs…

Another great country song to play on guitar is Whatever She’s Got by David Nail.

Guitar Chords used in this song are:  C   G   D   Em  

Another acoustic guitar songs by famous artists – Country Roads by John Denver.

Royals by Lorde is a beginner acoustic guitar songs. It’s great to play for beginners. The Chords you need to know is D Chord, C Chord, and G Chord.

Here is the video on how to play guitar songs without capo…

Here are 8 easy rock guitar songs to learn to play…

  • Bad Moon Rising
  • Wild Thing By The Troggs
  • Free Failin’ By Tom Perry
  • Every Rose Has It’s Thorn By Poison
  • Horse With No Name By America
  • The Joker By Steve Miller Band
  • Squeeze Box By The Who
  • Donna by Ritchie Vallens

Here is the video that show you how to play these rock guitar songs.

Refer to Easy Songs To Learn On Guitar above for easy guitar songs for beginners without capo.

I found some video lessons on easy rock guitar songs for your reference.

Here is an easy heavy metal songs play guitar with guitar tabs…

Here is easy classic rock songs to cover…

Another easy rock songs to play on guitar tabs

If you are looking for easy rock guitar songs chords, here it is…

For 3 chord rock songs, check out:

For easy rock songs to sing, check out:

Another easy song to learn is Summer Lovin’. You can play this song on 1 string.

E|----------------------------|
B|----------------------------|
G|----------------------------|
D|----------------------------|
A|----------------------------|
E|--0---0-5---5-7---7-5-7---5-|

Refer to Easy Country Songs To Play On Guitar for easy country songs.

Refer to Easy Songs To Learn On Guitar above for easy songs to play on guitar.

Here is an easy Spanish song to learn to play on Spanish Guitar…

Also check out:

If you are looking for easy acoustic rock songs for beginners

If you are looking for easy guitar tabs popular songs…

If you are looking for youtube acoustic guitar music

If you are looking for youtube acoustic guitar songs

If you are looking for relaxing acoustic guitar songs

If you are looking for easy acoustic guitar tabs or acoustic guitar tabs for beginners

https://www.tabs4acoustic.com/en/guitar-tabs/easy-tabs.html

If you are looking for easy guitar songs acoustic

If you are looking for easy popular guitar songs without capo

If you are looking for easy guitar songs with capo

If you are looking for easy taylor swift guitar songs no capo

Refer to Easy Songs To Learn On Guitar above for easy guitar songs with chords and tabs for beginners.

Here is a video on easy pop songs on guitar…

Check out:

… for 5 easy Christmas songs on guitar.

2018-01-23T01:26:03+00:00

Leave A Comment