After Practicing Lesson 1 and feeling more comfortable with your right hand you want to move this lesson.

I’m assuming at this point your technique is relaxed and you’re able to play the three exercised in Lesson 1 with minimal effort and relative ease.

In this lesson, I’m including a few more exercises to further develop your finger independence and agility.

I’m also going to focus a bit on moving your thumb to different strings and applying dynamics.

You’ll find as you play through a piece of music that you may need to position your thumb and/or fingers on any set of string groupings depending on the phrase that you’re executing.

You also need to apply dynamics to your playing to make your phrasing more expressive and musical.

Ex.1

E |---0-------0---------------------------|
B |-----1-------1------0--—---0-----------|
G |-------2-------2------0-------0--------|
D |-------------------------2-------2-----|
A |-0-------0-----------------------------|
E |-------------------0-------0-----------|

Ex.2

E |---0------0-------------------------------------------0----|
B |---1------1------0------0—----0------0------0------0-------|
G |-----2------2----0------0------2------2------0--------0----|
D |--------------------2------2-------2-----2------2----------|
A |-0------0---------------------2------2---------------------|
E |----------------0------0---------------------0-----0-------|

Want To Learn More …

classical-boxClassical Guitar Mastery is a comprehensive course that is aimed at those wanting a no nonsense approach to learning.

No music theory, background or knowledge required.  Anyone can learn to play classical guitar with our easy system.

It doesn’t matter what age you are or which country you live in.  The course will show you how to play classical guitar from beginning to end.

With our standard step-by-step instructions & video, ‘Classical Guitar Mastery’ is what you need to successful learn to master classical guitar.

Click Here To Learn More