If you’re looking for chords that sound a little more rich and have a lush quality – look no further.

In this lesson you’ll learn the major9 chord.

This chord is built from the major7 chord and adds a note a whole step above the root an octave higher.

For this reason, there are a lot of chords that don’t contain a root. When the chord is used in context the root is implied and at times is not needed.

If you’re playing with other players they can also cover the root of the chord so the sound isn’t ambiguous.

Below you’ll find both varieties, large and small shapes, for expanding the harmonic possibilities on your guitar. These are voicings I rely on when I need a major9 sound.

Gmaj9

E |-----------------------------|
B |--3----------7--------—-10---|
G |--2----------7-----------11--|
D |--4----------5-----------9---|
A |-----------------------------|
E |--3----------7-----------10--|

Gmaj9

E |--5---------7----------------------14---|
B |--3---------7----------10----------10---|
G |--4---------7----------11----------12---|
D |--4---------7----------12----------12---|
A |------------10---------10---------------|
E |----------------------------------------|

Want To Learn More …

chord-boxNo music theory, background or knowledge required.  Anyone can learn how to play chords on their guitar with our easy system.

It doesn’t matter what age you are or which country you live in.  The course will allow you to have your very own chord encyclopedia at your fingertips whenever you need to reference how to play a certain chord.

With our standard step-by-step instructions, video and chord diagrams, ‘Chord Mastery’ is what you will use every time you pick up your guitar.

Click Here To Learn More