Download Our FREE Report “50 Ways To Improve Your Playing”

Open chords are a very versatile component to any Rock guitarist’s toolbox.

These chords can be played on an acoustic or electric guitar either by themselves or layered with power chords to thicken a guitar track part.

Below are a few progressions that will give you a little insight as to how they can be used in a musical context.

Example 1

     D       C        G       C
E |--2-------0--------3-------0---|
B |--3-------1--------0---—---1---|
G |--2-------0--------0-------0---|
D |--0-------2--------0-------2---|
A |----------3--------2-------3---|
E |-------------------3-----------|

Example 2

    Em       C       G      D
E |--0-------0-------3------2---|
B |--0-------1-------0----—-3---|
G |--0-------0-------0------2---|
D |--2-------2-------0------0---|
A |--2-------3-------2----------|
E |--0---------------3----------|

Example 3

    Am     Dm       E
E |---------1-------0----|
B |--1------3-------0----|
G |--2------2-------1----|
D |--2------0-------2----|
A |--0--------------2----|
E |-----------------0----|

Want To Learn More …

rock-boxAs long as you have a basic knowledge on how to play guitar then we will take you to the next level as you learn the advanced techniques.

Learning rock guitar was the most popular style of guitar playing when a survey was conducted among our subscribers.

If you’re serious about learning how to rock out on your guitar and have always wanted to play like Slash of Jimmy then you will love our brand new “Rock Guitar Mastery” course.

It is a complete resource of everything rock guitar and is recommended only for the serious shredder.

Click Here To Learn More