Major chords are the foundation for all the chords you’ll learn, therefore it’s imperative that you’re familiar with these basic chord shapes.

Most of the lessons in this course will cover 2 types of chords: chords played on the lower strings and chords played on the higher strings.

Depending on the musical situation you’ll need chords that have a lighter texture or more mid-range and beef to fill out an arrangement.

Below you’ll find chord shapes that I use often and are wise choices for major chords.

C
E |-----------------------8---|
B |--5---------5---------—8---|
G |--5---------5----------9---|
D |--5---------5----------10--|
A |--3---------7----------10--|
E |------------8----------8---|
C
E |--3---------8----------12--|
B |--5---------8----------13—-|
G |--5---------9----------12--|
D |------------10-------------|
A |---------------------------|
E |---------------------------|

Want To Learn More …

chord-boxNo music theory, background or knowledge required.  Anyone can learn how to play chords on their guitar with our easy system.

It doesn’t matter what age you are or which country you live in.  The course will allow you to have your very own chord encyclopedia at your fingertips whenever you need to reference how to play a certain chord.

With our standard step-by-step instructions, video and chord diagrams, ‘Chord Mastery’ is what you will use every time you pick up your guitar.

Click Here To Learn More