Guitar Tabs

Guitar Tablatures or guitar tabs for short is a form of musical notation indicating instrument fingering on the guitar fretboard. Guitarists have their own distinct system of music notation called guitar tablature or guitar tabs.

Guitar tabs for beginners are important to learn especially for your guitar chord finger placement.   Below you’ll find more information about guitar tabs including all the popular ones you need to know in order to become a better guitarist.  Let’s get started …

If you can’t read music, you can play a wide variety of music using easy guitar tabs. There are so many easy guitar tabs for beginners acoustic online. Although guitar tabs are not the proper way to learn how to play acoustic guitar or electric guitar, but guitar tab allowed a beginner guitar player to play very easy guitar songs instantly.

All you need to know is on how to read the guitar tablature (guitar tabs).

The lines in guitar tabs start with the low E, A, D, G, B and high E strings –

Eat All Day Get Big Easily.

 E |----------------------------|(Thinnest string)
 B |----------------------------|
 G |----------------------------|
 D |----------------------------|
 A |----------------------------|
 E |----------------------------|(Thickest string)

Any numbers on the tabs represent which fret you placed on your guitar fretboard.

You can download free guitar tablature sheets online and print it out. Then you can use this free printable guitar tabs to create your own guitar songs.

 E |----------------------------|
 B |----------------------------|
 G |----------------------------|
 D |----------------------------|
 A |------------3---------------|
 E |----------------------------|

If you read the guitar tab above, you will play the note on 5th string, 3rd fret.

 E |----------------------------|
 B |----------------------7-----|
 G |----------------5-----------|
 D |----------------------------|
 A |----------3-----------------|
 E |---0------------------------|

With this guitar tab, you will play an open string on the 6th string, followed by the note on 5th string, 3rd fret, 3rd string, 5th fret and lastly 2nd string on the 7th fret.

Also while you’re here, check out a free report 50 ways to improve your playing.

Ultimate Guitar Archive, also known as Ultimate-Guitar.com or simply UG, is the largest guitarist community website that include guitar tabs for beginners, free blues guitar tabs, guitar tabs and lyrics, free guitar chords and lyrics, free music tabs and chords, country music lyrics and chords, free printable lyrics and chords, free song lyrics and chords, free guitar tabs and lyrics and free printable tablature for guitar.

Ultimate Guitar Tabs has thousands of free easy guitar song tabs for everyone who is looking for very easy guitar songs free.

You can also check out another guitar tabs website, Chordie – Chordie offers Chordie guitar tab lyrics and chords.

I personally prefer Ultimate guitar tabs because this guitar tabs site has very easy guitar tabs for beginners, intermediate and advanced guitarists. I always recommend our guitar players to find free acoustic guitar tabs or country guitar tabs at Ultimate Guitar Tabs website.

A Major Chord Guitar Tab

E |-------------0------------|
B |-------------2------------|
G |-------------2------------|
D |-------------2------------|
A |-------------0------------|
E |--------------------------|

E Major Chord Guitar Tab

E |-------------0------------|
B |-------------0------------|
G |-------------1------------|
D |-------------2------------|
A |-------------2------------|
E |-------------0------------|

C Major Chord Guitar Tab

E |-------------0------------|
B |-------------1------------|
G |-------------0------------|
D |-------------2------------|
A |-------------3------------|
E |--------------------------|

D Major Chord Guitar Tab

E |-------------2------------|
B |-------------3------------|
G |-------------2------------|
D |-------------0------------|
A |--------------------------|
E |--------------------------|

E Minor Chord Guitar Tab

E |-------------0------------|
B |-------------0------------|
G |-------------0------------|
D |-------------2------------|
A |-------------2------------|
E |-------------0------------|

F Major Chord Guitar Tab

E |-------------1------------|
B |-------------1------------|
G |-------------2------------|
D |-------------3------------|
A |--------------------------|
E |--------------------------|

B Minor Chord Guitar Tab

E |-------------2------------|
B |-------------3------------|
G |-------------4------------|
D |-------------0------------|
A |--------------------------|
E |--------------------------|

C Minor Chord Guitar Tab

E |-------------0------------|
B |-------------1------------|
G |-------------0------------|
D |-------------1------------|
A |-------------3------------|
E |-------------0------------|

You can search for free guitar tabs for beginners via Internet. It is ok if you don’t know how to read guitar tabs. Here are the instructions on how to read guitar tablature…

For standard tunings, the lines will represent the low E, A, D, G, B and high E strings –

Eat All Day Get Big Easily.

E |----------------------------|(Thinnest string)
B |----------------------------|
G |----------------------------|
D |----------------------------|
A |----------------------------|
E |----------------------------|(Thickest string)

The numbers on the tabs represent finger positions on the guitar fret board.

The ‘zero’ represents playing an open string. If you read the diagram below you would play this on a guitar by playing an open string on 5th string, then putting your finger just behind the 2nd fret, then you would play the note at the 5th fret, then again on the 3rd fret.

E |----------------------------|
B |----------------------------|
G |----------------------------|
D |----------------------------|
A |--0---2--5--3---------------|
E |----------------------------|

So how do you play the following tab?

E |-------------0---------|
B |-------------0---------|
G |-------------0---------|
D |-------------2---------|
A |-------------2---------|
E |-------------0---------|

E Minor (Em guitar chord) is played here as an open chord.  The ‘zero’ represents playing an open string and the 2 on D and A strings means placing your fingers on second fret. Compare the Em tabs with E Minor chords above. You will see how the chord is incorporated into the tablature format.

If you just start learning to play guitar and can’t read sheet music notation, you still can start to play guitar with easy beginner acoustic guitar songs. Here are some easy beginners guitar songs that you can play…

  • Brown Eyed Girl by Van Morrison
  • Hallelujah by Leonard Cohen
  • Sweet Home Alabama by Lynyrd Skynyrd
  • Sweet Child O’ Mine by Guns N’ Roses
  • House of the Rising Sun by The Animals
  • Knocking on Heaven’s Door by Bob Dylan
  • Good Riddance by Green Day
  • With or Without You by U2

You can find good easy guitar tabs for beginners online at Ultimate Guitar Tabs. It has 100 easy guitar tabs. Some are acoustic guitar tabs; some are printable country guitar tabs; some are classic country guitar tabs. These guitar tabs free for everyone to learn to play the guitar.

Free beginner guitar tabs and ez guitar tabs are easy to find online. Most beginners wonder how to play acoustic guitar for beginners. I think the easier way to learn to play is by going through easy guitar songs for beginners first. Once you start building your confidence, then you will be getting better from there.

If you are not comfortable learning guitar using free printable tabs,  I would recommend you to learn guitar proper by learning how to read music first. Download a guitar chords printable pdf and start to master the basic guitar chords.

If you are looking for classical guitar tabs, check out Classical Guitar Tablature site. It contains thousands of classical guitar tabs. These classical songs tabs are uploaded by guitarists all around the world. These easy tabs for guitar have been tested and played before they are uploaded.

With so many great amazing pieces of classical guitar music around, which pieces do you start to learn to play?

My favourite piece of classical guitar song is Spanish Romance by Anonymous.

Check out the video here. This classical song is played beautifully…

Another great piece Malaguena, a great classical guitar song to learn to play…

Canon in D by Pachelbel

Variations on a Theme by Mozart

Guitar Pro Tabs website is an online library of Guitar Pro tabs for all your favourite artists and bands. You can create your own tabs using blank guitar tab paper.

You can save this image and print it out.

Ultimate Guitar Tab is your ultimate guitar tabs website. It has free country guitar tab, free acoustic guitar tab, free classical guitar tabs and also country guitar tabs for beginners.

If you always wanted to learn to play simple acoustic guitar, it is worth to check out Ultimate Guitar Tab as it has good beginner acoustic guitar tabs.

Here are some easy guitar tabs for beginners.

Sweet Child O’ Mine by Guns N’ Roses Intro Riff

E |-------------15---14----------------15---14----|
B |----15---------------------15------------------|
G |-------14-12---14----14-------14-12---14----14-|
D |-12---------------------12---------------------|
A |-----------------------------------------------|
E |-----------------------------------------------|


Beat It by Michael Jackson Riff

E |-------------------------------|
B |-------------------------------|
G |-------------------------------|
D |----------5--2—2h4---2--0--0---|
A |-------2-----------------------|
E |-0--3--------------------------|
E |-------------------------------|
B |-------------------------------|
G |-------------------------------|
D |----------5--2—2h4---2--0------|
A |-------2-----------------------|
E |-0--3--------------------------|


Come as you are by Nirvana intro riff

E |-------------------------------------------|
B |-------------------------------------------|
G |-------------------------------------------|
D |-------------------------------------------|
A |-----------0---0-------------2------2------|
E |-0-0-1--2----2----2--2--1--0---0--0---0--1-|

The bass guitar looks alike in appearance and construction to an electric guitar, but with a longer neck and scale length.  Bass guitar has four to six strings or courses. The four-string bass is by far the most common.

If you are looking for bass guitar tabs, there are quite a few website online that offer free bass guitar tabs. Big Bass Tabs has free and accurate bass tablature of all your favourite artists of every genre and era and new bass tabs are added every day.

Tablature is a way of indicating the positioning of notes and fingering on the guitar fretboard. If you can read tabs, you will be able to play any of your favourites songs.

Basic Tab Lines

There are 6 tab lines representing 6 strings on the guitar.

The 1st string is the thinnest, and the 6th string is the thickest as shown below.

 E|----------------------| String 1 Thinnest
 B|----------------------| String 2 
 G|----------------------| String 3
 D|----------------------| String 4 
 A|----------------------| String 5
 E|----------------------| String 6 Thickest

Whereas on guitar…

– The string at the top is the thickest – 6th string

– The string at the bottom is the thinnest – 1st string (as shown in diagram below)

Numbers is placed with examples

When a number is placed on one of the lines, it indicates the fret location of note. Example 1:

 E|------| String 1
 B|---4--| String 2 
 G|------| String 3
 D|------| String 4
 A|------| String 5
 E|------| String 6

(This means to play the 4th Fret on the 2nd string)

 E|-------------| String 1
 B|------6------| String 2
 G|--5----------| String 3 
 D|-----------0-| String 4 
 A|-------------| String 5 
 E|-------------| String 6

This indicates:
5th Fret, 3rd string, then
6th Fret, 2nd string, then
an open 4th string.

So, if you see the following tab, you should be able to know how to read the tabs…

 E|-1-----------------| String 1
 B|---------8---------| String 2
 G|-----7-------------| String 3
 D|-------------2-----| String 4
 A|-------------------| String 5
 E|----------------12-| String 6

This indicates:
1st Fret, 1st string then
7th Fret, 3rd string, then
8th Fret, 2nd string, then
2nd Fret, 4th string, then
12th Fret, 6th string.

Free guitar tabs are available online. There are guitar tabs symbols that you will see on guitar tabs for some guitar songs.

Hammer On (h) is produced by hitting a note first, before sliding your finger to another fret while the string is still ringing out.

Pull off (p) is the same as a hammer on – but instead of placing our fingers onto the string, we are TAKING OUR FINGERS OFF the string, after striking it.

Bends (b) are relatively easy to perform. Bends are shown in many different symbols. The b and ^ are common symbols used for bends. The ( ) usually contain a number in between and tell the player to bend to that note. Notes without ( ) usually have the note to be bent to next to the original note.

A bend (b) is carried out by bending the string up on the guitar to produce a sound similar to that of the fret noted on the tab.

A release (r) is done by picking the note in its bent position, but letting go of the string so that it can return to its normal pitch.

The symbol \ signifies a slide down the neck, while / signifies a slide up the neck. The notes are picked in the order in which they appear from left to right.

If you continue to hold the fret down after the slide, or even after picking any random note, it will cause the note to ring. This effect is called vibrato (v or ~) which is fluctuating the pitch of a note.

Tapping (t) is where you tap the string repeatedly.

To perform symbol (x), gently rest a finger of your left hand over the indicated string or strings, and then strum. This will produce a dull, almost scratchy sound.

Fingerstyle guitar is the technique of playing the guitar by plucking the strings directly with the fingertips, fingernails, or picks attached to fingers, as opposed to flatpicking (plucking individual notes.

Here is a video on how to play fingerstyle guitar…

Below are some old popular fingerstyle songs. Some of the video come with fingerstyle guitar tabs…

Every Breath You Take

No Woman No Cry

Nothing Else Matters

Stairway To Heaven

Learn how to play guitar for beginners printable tabs are everywhere online. If you are looking for guitar songs for beginners printable, check out the ultimate guitar site.

Here are some easy guitar tabs for beginner –


Sweet Child O’ Mine by Guns N’ Roses Intro Riff

 E |-------------15---14----------------15----14----|
 B |----15---------------------15-------------------|
 G |-------14-12---14----14-------14-12----14----14-|
 D |-12---------------------12----------------------|
 A |------------------------------------------------|
 E |------------------------------------------------|


Beat It by Michael Jackson Riff

 E |-------------------------------|
 B |-------------------------------|
 G |-------------------------------|
 D |----------5--2—2h4---2--0--0---|
 A |-------2-----------------------|
 E |-0--3--------------------------|
 E |-------------------------------|
 B |-------------------------------|
 G |-------------------------------|
 D |----------5--2—2h4---2--0------|
 A |-------2-----------------------|
 E |-0--3--------------------------|


Come as you are by Nirvana intro riff

 E |-------------------------------------------|
 B |-------------------------------------------|
 G |-------------------------------------------|
 D |-------------------------------------------|
 A |-----------0---0-------------2------2------|
 E |-0-0-1--2----2----2--2--1--0---0--0---0--1-|


Wonderful Tonight by Eric Clapton intro solo

 E |-----------------------------------------------|
 B |----10-8-10---10-8----10-8-10------------------|
 G |-------------------9---------------------------|
 D |-----------------------------------------------|
 A |-----------------------------------------------|
 E |-----------------------------------------------|
 E |--------------------------------------10-12-10-|
 B |-10-8-10--10-8---10-8-10--10-12-12-13----------|
 G |---------------9-------------------------------|
 D |-----------------------------------------------|
 A |-----------------------------------------------|
 E |-----------------------------------------------|

Guitar chords for beginners are important to learn especially for your guitar chord finger placement.   Below you’ll find more information about guitar chords including all the popular ones you need to know in order to become a better guitarist.  Let’s get started …

Here is an old time favourite guitar song for beginners.

Every Breath You Take by The Animals Intro riff guitar tab…

Capo 1
 E |-----------------------------------|
 B |---------0---------------0---------|
 G |-----2-----2---2-----2------2---2--|
 D |---0---0-----0-----0---0------0----|
 A |-----------------------------------|
 E |-3---------------3-----------------|
 E |-----------------------------------|
 B |-----------------------------------|
 G |----------0---------------0--------|
 D |-----4------4---4-----4-----4---4--|
 A |---2---2------2-----2---2-----2----|
 E |-0----------------0----------------|
 E |-----------------------------------|
 B |-----3---------------5-------------|
 G |---------5---------------7---------|
 D |---5---5---5---5---7---7---7---7---|
 A |-3-----------3---5-----------5-----|
 E |-----------------------------------|
 E |-----------------------------------|
 B |---------0---------------0---------|
 G |-----2-----2---2-----2------2---2--|
 D |---0---0-----0-----0---0------0----|
 A |-----------------------------------|
 E |-3---------------3-----------------|

Learning acoustic guitar for beginners is hard at the beginning but once you learned all the scales and chords, and with plenty of practice… everything becomes EASY…

There are hundreds of acoustic guitar lessons for beginners available online. Everyone has different views on how to learn to play guitar. There are websites that have different tutors that teach the same thing. For me, I personally prefer to just stick with one guitar tutor to learn how to play guitar so there is no confusion as different guitarists have different style and habits they adopted along the way. So just stick with 1 guitar tutor to learn to play is my best advice for you.

Acoustic guitars for beginners are not different to Classical Guitar. They look the same except Classical guitar used Nylon string which is soft on your fingers when you learn to play guitar.

So what is the 10 top acoustic guitars to choose from?

The best guitar to go for if you are looking at playing Classic Acoustic music is either:

Spanish Classic Acoustic Guitar OR Steel String Acoustic Guitar

Spanish Classic Acoustic Guitars are extremely light and having nylon strings which are very soft on your fingers.

Steel String Acoustic Guitars are a little more expensive compared to Spanish guitars. You may want a Yamaha or Fender acoustic guitars for beginners.

Again, with acoustic guitars, there is no need to go for big brands when you are first starting out. The most important thing is that you feel comfortable playing it.

Also, make sure your fingers fit around the guitar neck and it is not too big for you to play. It depends on you as to whether you want pickups or not. But remember to test it first before you buy.

If you are looking at playing rock music, the best guitar to go for is an Electric guitar. The key here is to start small and grow big. I have seen so many people go out and buy the most expensive equipment before they can play anything.

You may have your heart set on getting big names like a new Gibson Les Paul or a Fender Stratocaster, but the prices are pretty steep.

When choosing your first electric guitar, the best thing to go for is a copy of an original i.e. Plywood. The sound between an original Pure Solid Wood compare to Plywood is a lot better, however plywood is much cheaper.

My suggestion is to go for small brands like Legend, Onyx or Orion for now. Once you have mastered the basics, then it is the time to upgrade.

Second hand guitars are another option to go for. There are some great deals going in the local papers. When looking for a guitar, make sure you plug it in and try it out.

Grab the strap if needed and put the guitar around your neck. Get every possible bit of information you can before making a decision.

Scales play a part in everything we play on the guitar. There is nothing but scales. When you hear a chord, arpeggio, solo, riff or a melody, what you’re hearing are notes of a scale or various scales being played in a musical way. I like to think of scales as a painter palette. A painter will have his colors lined up to
use any way he sees fit. His brush is his tool and he’ll perform different techniques with this brush to produce various textures and lines.

The painter’s brush is your pick and the plethora of techniques he uses can be paralleled with the techniques you use as a guitarist. You can think of every note in a scale as a color. When you do this, you’ll hear music a little differently giving more weight to your notes when using them in a musical context. Understanding of your scales is imperative to understanding how music is pieced together.

Many times the novice improviser will play wrong notes during a solo or the songwriter will not know where to go with their song. This is simply because the knowledge of scales is not perceived.

This lesson will build your confidence with the major scale. Below I believe are the 4 most important patterns for a major scale you can learn. They are all 2-octave scales except for the 5th string, 4th finger form. I didn’t complete the 2nd octave because it takes you too far away from the original position and the purpose of this lesson is to present these scales in a clear manner and staying in position makes the pattern more manageable. These scales are all transposable meaning you can move these patterns anywhere on the fingerboard. The scale name is derived from the starting note.

C Major scale:

 E |----------------------------------------7-8--|
 B |----------------------------------8-10-------|
 G |-------------------------7-9-10--------------|
 D |----------------7-9-10-----------------------|
 A |-------7-8-10--------------------------------|
 E |-8-10----------------------------------------|
 E |--------------------------------5-7-8--|
 B |------------------------5-6-8----------|
 G |----------------4-5-7------------------|
 D |----------5-7--------------------------|
 A |---5-7-8-------------------------------|
 E |-8-------------------------------------|
 E|------0---|--0---0-------|--------------|--------------|----------0---|
 B|--------4-|----4---0-3-1-|--------------|--0---------0-|--1---------4-|
 G|----------|--------------|--2---2-----2-|------1---1---|------2-------|
 D|----------|--------------|----2-----2---|----2---2-----|----2---2-----|
 A|----------|--------------|--0-----3-----|--------------|--0-----------|
 E|----------|--------------|--------------|--0-----------|--------------|
 E|--0---0-------|--------------|--------------|---------0---|--0---0-------|
 B|----4---0-3-1-|--------------|--0-------1-0-|-----------4-|----4---0-3-1-|
 G|--------------|--2---2-----2-|------1-------|--2---2------|--------------|
 D|--------------|----2-----2---|----2---2-----|----2--------|--------------|
 A|--------------|--0-----3-----|--------------|--0----------|--------------|
 E|--------------|--------------|--0-----------|-------------|--------------|
 E|--------------|--------------|----------0---|--0---0-------|--------------|
 B|--------------|--0---------0-|--1---------4-|----4---0-3-1-|--------------|
 G|--2---2-----2-|------1---1---|------2-------|--------------|--2---2-----2-|
 D|----2-----2---|----2---2-----|----2---2-----|--------------|----2-----2---|
 A|--0-----3-----|--------------|--0-----------|--------------|--0-----3-----|
 E|--------------|--0-----------|--------------|--------------|--------------|
 E|--------------|--------------|--0-------1-0-|----------0---|--------------|
 B|--0-------1-0-|--------0-1-3-|------1-------|--3---0-----3-|--1-------3-1-|
 G|------1-------|--2---2-------|--------0-----|----0---------|------2-------|
 D|----2---0-----|----2---------|----2---------|--------3-----|----2---2-----|
 A|--------------|--0-----------|--3-----------|--------------|--0-----------|
 E|--0-----------|--------------|--------------|--3-----------|--------------|
 E|------0---0---|--0---12---0---|--0---0---0---|--0---0-------|--------------|
 B|--0-----------|---------4---4-|----4---4---4-|----4---0-3-1-|--------------|
 G|--------------|----9----------|--------------|--------------|--2---2-----2-|
 D|----2---2---2-|---------------|--------------|--------------|----2-----2---|
 A|--------------|---------------|--------------|--------------|--0-----3-----|
 E|--0-----------|---------------|--------------|--------------|--------------|
 E|--------------|----------0---|--0---0-------|--------------|--------------|
 B|--0---------0-|--1---------4-|----4---0-3-1-|--------------|--0-------1-0-|
 G|------1---1---|------2-------|--------------|--2---2-----2-|------1-------|
 D|----2---2-----|----2---2-----|--------------|----2-----2---|----2---0-----|
 A|--------------|--0-----------|--------------|--0-----3-----|--------------|
 E|--0-----------|--------------|--------------|--------------|--0-----------|
 E|--------------|--0-------1-0-|----------0---|--------------|------0---0---|
 B|--------0-1-3-|------1-------|--3---0-----3-|--1-------3-1-|--0-----------|
 G|--2---2-------|--------0-----|----0---------|------2-------|--------------|
 D|----2---------|----2---------|--------3-----|----2---2-----|----2---2---2-|
 A|--0-----------|--3-----------|--------------|--0-----------|--------------|
 E|--------------|--------------|--3-----------|--------------|--0-----------|
 E|--0---12---0---|--0---0---0---|--0---0-------|--------------|--------------|
 B|---------4---4-|----4---4---4-|----4---0-3-1-|--------------|--0---------0-|
 G|---------------|--------------|--------------|--2---2-----2-|------1---1---|
 D|---------------|--------------|--------------|----2-----2---|----2---2-----|
 A|---------------|--------------|--------------|--0-----3-----|--------------|
 E|----0----------|--------------|--------------|--------------|--0-----------|
 E|----------0---|--0---0-------|--------------|--------------|--------------|
 B|--1---------4-|----4---0-3-1-|--------------|--0-------1-0-|--------1-1-1-|
 G|------2-------|--------------|--2---2-----2-|------1-------|--2---2-----3-|
 D|----2---2-----|--------------|----2-----2---|----2---0-----|----2---2-3-2-|
 A|--0-----------|--------------|--0-----3-----|--------------|--0-----1-0---|
 E|--------------|--------------|--------------|--0-----------|------------3-|
 E|----------1---0-|----------6---5-|--5/3-1-0-----|------------------|
 B|--1-------1-----|--5---3---3-----|----------3-1-|------------------|
 G|--2-2---2---2---|----3---3---3---|--------------|--3---2---2-0-2-3-|
 D|------3---------|--3-------------|--3/2-0-2-3-2-|--3---------------|
 A|----------------|----------------|--------------|----3-3h0---------|
 E|--1-------------|----------------|--------------|------------------|
 E|--------------|--0-----0-1---|----------------|----3---3---3---3---3---3-|
 B|--1-------3-4-|------1-------|--1-------3---0-|--1-----------0---1---3---|
 G|--2-2---2-----|----2---2---2-|----------------|------0---2---------------|
 D|--3---3-------|--2-------0-3-|----2---3---3---|--------------3---2---0---|
 A|--------------|--------------|----------------|--3-----------------------|
 E|--------------|--------------|--3---3---3-----|--------------------------|
 E|--0-3-8h7-5h3-1-0---3-1---|----3---3---3---3---3---3-|
 B|------------------3-----3-|--1-----------0---1---3---|
 G|------------------0-------|------0---2---------------|
 D|----------3---------------|--------------3---2---0---|
 A|--3/--7-------------------|--3-----------------------|
 E|--------------------------|--------------------------|
 E|--0-3-8h7-5h3-1-0---3-1---|--0-1-0---0---0---0---0---|--0-----0---|--0-----0---|
 B|------------------3-----3-|--------4---0---4---0---4-|------0---4-|------0---4-|
 G|------------------0-------|--1-----------------------|------------|------------|
 D|----------3---------------|--------------------------|------------|------------|
 A|--3/--7-------------------|--------------------------|------------|------------|
 E|--------------------------|--------------------------|------------|------------|
 E|--0---0---0---|--0---0-------|--------------|--------------|----------0---|
 B|----4---4---4-|----4---0-3-1-|--------------|--0---------0-|--1---------4-|
 G|--------------|--------------|--2---2-----2-|------1---1---|------2-------|
 D|--------------|--------------|----2-----2---|----2---2-----|----2---2-----|
 A|--------------|--------------|--0-----3-----|--------------|--0-----------|
 E|--------------|--------------|--------------|--0-----------|--------------|
 E|--0---0-------|--------------|--------------|--------------|--0-------1-0-|
 B|----4---0-3-1-|--------------|--0-------1-0-|--------0-1-3-|------1-------|
 G|--------------|--2---2-----2-|------1-------|--2---2-------|--------0-----|
 D|--------------|----2-----2---|----2---0-----|----2---------|----2---------|
 A|--------------|--0-----3-----|--------------|--0-----------|--3-----------|
 E|--------------|--------------|--0-----------|--------------|--------------|
 E|----------0---|--------------|------0---0---|--0---12---0---|--0---0---0---|
 B|--3---0-----3-|--1-------3-1-|--0-----------|---------4---4-|----4---4---4-|
 G|----0---------|------2-------|--------------|---------------|--------------|
 D|--------3-----|----2---2-----|----2---2---2-|---------------|--------------|
 A|--------------|--0-----------|--------------|---------------|--------------|
 E|--3-----------|--------------|--0-----------|----0----------|--------------|
 E|--0---0-------|--------------|--------------|----------0---|--0---0-------|
 B|----4---0-3-1-|--------------|--0---------0-|--1---------4-|----4---0-3-1-|
 G|--------------|--2---2-----2-|------1---1---|------2-------|--------------|
 D|--------------|----2-----2---|----2---2-----|----2---2-----|--------------|
 A|--------------|--0-----3-----|--------------|--0-----------|--------------|
 E|--------------|--------------|--0-----------|--------------|--------------|
 E|--------------|--------------|--------------|--------------|----------0-1-|
 B|--------------|--0-------1-0-|--------------|--2-----------|--3-------2-3-|
 G|--2---2-----2-|------1-------|--2-----------|--3-----------|--2-----------|
 D|----2-----2---|----2---0-----|--------------|--5-----------|--3-----------|
 A|--0-----3-----|--------------|--0-0-0-0-0-0-|--0-0-0-0-0-0-|--0-0-0-0-0-0-|
 E|--------------|--0-----------|--------------|--------------|--------------|
 E|--1-------1---|--0-----------|-----------|----------|--------------|
 B|--3-------3---|--1-----------|--3----1-0-|----------|------1---0---|
 G|--1-------1---|--2-----------|-----------|--2----2--|--2-------1---|
 D|--------------|--------------|--3----2-0-|--4-------|------2-------|
 A|--0-0-0-0-0-0-|--0-0-0-0-0-0-|--0--------|--3----3--|--3-----------|
 E|--------------|--------------|-----------|--5-------|--0-0-0-0-0-0-|
 E|--------------|--------------|----------0-1-|--1-------1---|--1-----------|
 B|--------------|--2-----------|--3-------2-3-|--3-------3---|--3-----------|
 G|--2-----------|--3-----------|--2-----------|--------------|--------------|
 D|--------------|--5-----------|--3-----------|--------------|--------------|
 A|--3h0-0-0-0-0-|--0-0-0-0-0-0-|--0-0-0-0-0-0-|--0-0-0-0-0-0-|--1-1-1-1-1-1-|
 E|--------------|--------------|--------------|--------------|--------------|
 E|--------------|--------------|--------------|---------|---------|
 B|--4-------3-1-|--------------|--------------|---------|--0------|
 G|--0-----------|--3-------2---|--1-------1---|--2------|--1------|
 D|----------3---|--0-------3---|--3-------3---|--2------|--2------|
 A|--1-1-1-1-1-1-|--1-1-1-1-1-1-|--2-2-2-2-2-2-|--3------|---------|
 E|--------------|--------------|--------------|---------|--0------|
 E|------------0-------|------0----8-12-10h8----|------0----8-12-10h8----|
 B|----------1---3h1-0-|----1---10-----------12-|----1---10-----------12-|
 G|--------2-----------|--2---------------------|--2---------------------|
 D|------2-------------|------------------------|------------------------|
 A|--0h3---------0-----|--0-------------0-------|--0-------------0-------|
 E|--------------------|------------------------|------------------------|
 E|------------------------|--------------------|------0-------|--------------|
 B|--11-10-9-8-----------3-|--2-1-0-------------|----4---0-3-1-|--------------|
 G|------------11-10-9-8---|--------3-2-1-0-----|--------------|--2---2-----2-|
 D|------------------------|----------------4-3-|--2-----------|----2-----2---|
 A|--0---------------------|--------------------|--------------|--0-----3-----|
 E|------------------------|--------------------|--------------|--------------|
 E|--------------|----------0---|--0---0-------|--------------|--------------|
 B|--0---------0-|--1---------4-|----4---0-3-1-|--------------|--0-------1-0-|
 G|------1---1---|------2-------|--------------|--2---2-----2-|------1-------|
 D|----2---2-----|----2---2-----|--------------|----2-----2---|----2---0-----|
 A|--------------|--0-----------|--------------|--0-----3-----|--------------|
 E|--0-----------|--------------|--------------|--------------|--0-----------|
 E|--------------|--0-------1-0-|----------0---|-------------|------0---0---|
 B|--------0-1-3-|------1-------|--3---0-----3-|--1-------3-1-|--0-----------|
 G|--2---2-------|--------0-----|----0---------|------2-------|--------------|
 D|----2---------|----2---------|--------3-----|----2---2-----|----2---2---2-|
 A|--0-----------|--3-----------|--------------|--0-----------|--------------|
 E|--------------|--------------|--3-----------|--------------|--0-----------|
 E|--0---12---0---|--0---0---0---|--0---0-------|--------------|--------------|
 B|---------4---4-|----4---4---4-|----4---0-3-1-|--------------|--0---------0-|
 G|----9----------|--------------|--------------|--2---2-----2-|------1---1---|
 D|---------------|--------------|--------------|----2-----2---|----2---2-----|
 A|---------------|--------------|--------------|--0-----3-----|--------------|
 E|---------------|--------------|--------------|--------------|--0-----------|
 E|----------0---|--0---0-------|--------------|--------------|---------||
 B|--1---------4-|----4---0-3-1-|--------------|--0-------1-0-|---------||
 G|------2-------|--------------|--2---2-----2-|------1-------|--2------||
 D|----2---2-----|--------------|----2-----2---|----2---0-----|---------||
 A|--0-----------|--------------|--0-----3-----|--------------|--0------||
 E|--------------|--------------|--------------|--0-----------|---------||

Credit to Ultimate Guitar for fur elise guitar tab…

Here is the Stairway To Heaven Guitar Tab…

 E|-------5-7-----7-|-8-----8-2-----2-|-0---------0-----|-----------------|
 B|-----5-----5-----|---5-------3-----|---1---1-----1---|-0-1-1-----------|
 G|---5---------5---|-----5-------2---|-----2---------2-|-0-2-2-----------|
 D|-7-------6-------|-5-------4-------|-3---------------|-----------------|
 A|-----------------|-----------------|-----------------|-2-0-0---0--/8-7-|
 E|-----------------|-----------------|-----------------|-----------------|
 E|---------7-----7-|-8-----8-2-----2-|-0---------0-----|-----------------| 
 B|-------5---5-----|---5-------3-----|---1---1-----1---|-0-1-1-----------|
 G|-----5-------5---|-----5-------2---|-----2---------2-|-0-2-2-----------| 
 D|---7-----6-------|-5-------4-------|-3---------------|-----------------|
 A|-0---------------|-----------------|-----------------|-2-0-0-------0-2-| 
 E|-----------------|-----------------|-----------------|-----------------|
 E|-------0-2-----2-|-0-----0----------|---------3-----3-|-3^2-2-2---------|
 B|-----------3-----|---1-----0h1------|-1-----1---0-----|-----3-3---------|
 G|-----0-------2---|-----2-------2----|---0---------0---|-----------------|
 D|---2-----0-------|-3----------------|-----2-----------|-0---0-0---------|
 A|-3---------------|---------0----0-2-|-3---------------|-------------0-2-|
 E|-----------------|------------------|---------3-------|-----------------|
 E|---------2-----2-|-0-----0----------|---------------2-|-0-0-0-----------|
 B|-------1---3-----|---1-----0-1------|-------1-----3---|-1-1-1-----------|
 G|-----0-------2---|-----2-------2----|-----0-----2-----|-2-2-2-----------|
 D|---2-----0-------|-3----------------|---2-----0-------|-3-3-3-----------|
 A|-3---------------|---------0----0-2-|-3---------------|-----------------|
 E|-----------------|------------------|-----------------|-----------------|

Credit to Ultimate Guitar for stairway to heaven guitar tab…

Here is the tab for Moonlight Sonata…

 E|------0------0------0------0---|------0------0------0------0----|
 B|----2------2------2------2-----|----2------2------2------2------|
 G|--1------1------1------1-------|--1------1------1------1--------|
 D|-------------------------------|--------------------------------|
 A|--4----------------------------|--2-----------------------------|
 E|-------------------------------|--------------------------------|
 E|------0------0------2------2--|------------------------------|
 B|----2------2------3------3----|------7------5------4------4--|
 G|--2------2------2------2------|----5------6------6------5----|
 D|------------------------------|--6------6------6------4------|
 A|--0---------------------------|------------------------------|
 E|----------------2-------------|--4-------------4-------------|
 E|------------------------------|------2------2------2------2--|
 B|-------------5------5------5--|----4------4------4------4----|
 G|------6----6------6------6----|--1------1------1------1------|
 D|----6----6------6------6------|------------------------------|
 A|--7---------------------------|--3---------------------------|
 E|--4---------------------------|------------------------------|
 E|------0------0------2------2--|------0------0----------------|
 B|----2------2------2------2----|----0------0--------4------4--|
 G|--1------1------2------2------|--1------1--------4------4----|
 D|------------------------------|----------------7------7------|
 A|--4---------------------------|--2---------------------------|
 E|----------------2-------------|----------------7-------------|
 E|------------------------------|------------------------------|
 B|------5------5------5------5--|------5------5------5------5--|
 G|----4------4------4------4----|----4------4------4------4----|
 D|--6------6------6------6------|--5------5------5------5------|
 A|------------------------------|--4---------------------------|
 E|--0---------------------------|------------------------------|
 E|------------------------------|------0------0------0------0--|
 B|------6------6------6------6--|----1------0------2------2----|
 G|----4------4------4------4----|--0------0------0-------------|
 D|--5------5------5------5------|-----------------------4------|
 A|------------------------------|--3------2------1------1------|
 E|--5---------------------------|------------------------------|
 E|------------------------------|------------------------------|
 B|------3------3------2------2--|------3------3------2------2--|
 G|----4------4------4------4----|----4------4------3------3----|
 D|--4------4------5------2------|--4------4------4------4------|
 A|--2---------------------------|------------------------------|
 E|----------------0------3------|--2-------------2-------------|
 E|------2------2------2------2--|------3------3------3------3--|
 B|----3------3------4------4----|----5------5------5------5----|
 G|--4------4------4------4------|--4------4------4------4------|
 D|------------------------------|------------------------------|
 A|--2---------------------------|------------------------------|
 E|------------------------------|---------0------3------0------|
 E|------2------2------2------2--|------3------3------3------3--|
 B|----4------4------4------4----|----5------5------5------5----|
 G|--4------4------4------4------|--4------4------4------4------|
 D|------------------------------|------------------------------|
 A|--2---------------------------|------------------------------|
 E|------------------------------|---------0------3------0------|
 E|------2------2------1------1--|------4------4------2------2--|
 B|----4------4------3------3----|----2------2------2------2----|
 G|--4------4------4------4------|--0------0------2------2------|
 D|------------------------------|------------------------------|
 A|--2---------------------------|------------------------------|
 E|----------------4-------------|--1-------------2-------------|
 E|------------------------------|------------------------------|
 B|------3------3------4------4--|------------------------------|
 G|----4------4------2------2----|------2------2------1------1--|
 D|--5------5------4------4------|----4------4------4------3----|
 A|--2-------------3-------------|--4------4------4------4------|
 E|------------------------------|------------------------------|
 E|-------------2------5------5--|------7------7------7------7--|
 B|------2----2------7------7----|----9------9------9------9----|
 G|----2----2------6------6------|--6------6------6------6------|
 D|--4---------------------------|------------------------------|
 A|------------------------------|--8---------------------------|
 E|------------------------------|------------------------------|
 E|------5------5------5------5--|------4------4------4------4--|
 B|----7------7------7------7----|----7------7------7------7----|
 G|--6------6------5------6------|--8------8------8------8------|
 D|--4---------------------------|-----------------------6------|
 A|-----------------------4------|------------------------------|
 E|----------------5-------------|--8---------------------------|
 E|-------9------9------5------6--|--8---------------------------------|
 B|-----9------9------7------5----|-----------9-------10-------7-------|
 G|--9-------9------8------6------|--------8-------8--------8-------8--|
 D|--11--------------------4------|-----10------10-------10------10----|
 A|-----------------9-------------|--11--------------------------------|
 E|--9----------------------------|------------------------------------|
 E|------------------------------|---------9------12------9------|
 B|------4------4------4------4--|------9------9-------9------9--|
 G|----5------5------5------5----|----9------9-------9------9----|
 D|---------6------7------4------|--6----------------------------|
 A|------------------------------|-------------------------------|
 E|--4---------------------------|--0----------------------------|
 E|----------------0-------------|
 B|---------2-------------2------|
 G|------1------1------1------1--|
 D|----2------2------2------2----|
 A|------------------------------|
 E|--0---------------------------|

Credit to Ultimate Guitar for this guitar tab…

Here is the Blackbird guitar tabs…

[Intro]
 E|-------------------------------------------------------------|
 B|---0-------1-------3--------/12----12--12----12----12--12----|
 G|-------0-------0-------0---------0-------0-------0-------0---|
 D|-------------------------------------------------------------|
 A|-----------0-------2--------/10------10------10------10------|
 E|---3---------------------------------------------------------|
[Verse]
 E|-------------------------------------------------------------|
 B|---0-------1-------3--------/12----12--12----12----12--12----|
 G|-------0-------0-------0---------0-------0-------0-------0---|
 D|-------------------------------------------------------------|
 A|-----------0-------2--------/10------10------10------10------|
 E|---3---------------------------------------------------------|
 E|----------(3)-------------(5)-----------------------------------------|
 B|---5-------8-------7-------10---------8-----8---8-----8-----8---8-----|
 G|-------0-------0-------0-------0----------0-------0-------0-------0---|
 D|----------------------------------------------------------------------|
 A|---3-------4-------5-------6----------7-------7-------6-------6-------|
 E|----------------------------------------------------------------------|
 E|----------(3)---------------------------------------|
 B|---7-------8-------5-----5---5------4-----4---4-----|
 G|-------0-------0-------0-------0--------0-------0---|
 D|----------------------------------------------------|
 A|---5-------4-------3-------3--------3-------3-------|
 E|----------------------------------------------------|
 E|-----------------------------------------------------------------------|
 B|---3-----3---3-----2-----2---2------1-----1---1------0-----0----0------|
 G|-------0-------0-------0-------0--------0-------0--------0---------0---|
 D|------------------------------------0-------0--------------------------|
 A|---2-------2-------0-------0-------------------------------------------|
 E|-----------------------------------------------------3--------3--------|
[Fill]
 E|----------------------------------------------------------------------|
 B|--5-------3---------2-----2---2-----1-----1---1------0-----0----0-----|
 G|------0-------0---------0-------0-------0-------0--------0--------0---|
 D|------------------------------------0-------0-------------------------|
 A|--3-------2---------0-------0-----------------------------------------|
 E|-----------------------------------------------------3--------3-------|
[Chorus]
 E|---------------------------------------------------------------------|
 B|---10------8-------6-------5---------3-----3---3-----5-----5---5-----|
 G|-------0-------0-------0-------0---------0-------0-------0-------0---|
 D|---------------------------------------------------------------------|
 A|---8-------7-------5-------3---------1-------1-------3-------3-------|
 E|---------------------------------------------------------------------|
 E|---------------------------------------------------------------------|
 B|---10------8-------6-------5---------3-----3---3-----2-----2---2-----|
 G|-------0-------0-------0-------0---------0-------0-------0-------0---|
 D|---------------------------------------------------------------------|
 A|---8-------7-------5-------3---------1-------1-------0-------0-------|
 E|---------------------------------------------------------------------|
 E|----------------------|
 B|---1-----1---1----1---|
 G|-------0-------0------|
 D|---0-------0----------|
 A|----------------------|
 E|----------------------|

Credit to Ultimate Guitar for blackbird guitar tab…

Happy Birthday Song is an easy to learn to play on your guitar. Here is the tab to learn how to play the happy birthday song…

E|-------------|-------------|---------------|-------------|
B|-------------|-------------|---------------|-------------|
G|-------------|-------------|-----4-1-------|-2-2-1-------|
D|---------2-1-|---------4-2-|---------2-1---|-------2-4-2-|
A|-2-2-4-2-----|-2-2-4-2-----|-2-2---------4-|-------------|
E|-------------|-------------|---------------|-------------|

Ultimate Guitar Tab Pro also offers country guitar riffs and country guitar licks if you are looking to learn to play country guitar.

Guitar Tab Pro is a membership site offered by Ultimate Guitar to its exclusively members. You can learn how to play your favourite songs with Ultimate Guitar huge database.

2017-11-21T01:46:45+00:00

2 Comments

  1. GUITAR TABS – Drawing Made Easy February 20, 2018 at 10:01 am - Reply

    […]             There are so many easy guitar tabs for beginners acoustic online in this website. Guitar tabs for beginners as well as high levels  are important to learn especially for guitar chord finger […]

  2. gravity guy juego August 8, 2018 at 2:52 am - Reply

    May I simply just sayy what a comfort to find someone who actually knows what they are discussing oon the
    net. You certainly realize how to bring a problem to ljght
    and make it important. Moore and more people must check this out and understand this side of the
    story. I was surprised that you aren’t more popular since you modt certainly have the gift.

Leave A Comment